FIND YOUR SONG BOOK
CLICK HERE FOR ADVANCED SEARCH

You are here » Nepali Song Chord » Melodies » Resam firiri

Resam firiri

Singer : Melodies
Musician : Same
Lyricist : Not Available

This melody piece is being tabbed in A chord.


   re sa ma fi ri i ri   re sa ma fi ri ri   u de ra jaun ki dada  ma bhan jyang
E|-------------------------------------------------------------------------------|
B|--------------5-7--5---5--5--7--5-----------------------7--5-5-----------------|
G|-------4---6---------6-------------6--4----------4--6------------6---4-----6---|
D|-7--7--------------------------------------7-7---------------------------------|
A|-------------------------------------------------------------------------------|
E|-------------------------------------------------------------------------------|

  re sa ma fi  ri i ri
E|---------------------|
B|---------------------|
G|-4-4------------4----|
D|-------7--4--7-----7-|
A|---------------------|
E|---------------------|

   ek na le ban duk dui nale ban duk mri ga la i takeko
E|------------------------------------------------------|
B|------------------------------------------------------|
G|--6--6--6--4---6--------------------6---4-------------|
D|-------------------7--7-6--4-6--4----------7-5--7-7-7-|
A|------------------------------------------------------|
E|------------------------------------------------------|

Mrigalai maile takeko hoina maya lai dakeko (Play same as above)





POST YOUR COMMENTS

OTHER SONGS FROM MELODIES
T Chati ma mero yo choto bhoto Added on 23rd Aug 2011 8421 hits
T Simsime pani ma Added on 23rd Apr 2011 6993 hits
T DeusiRe Added on 12th Aug 2005 12117 hits
T Rajamati kumati Added on 2nd Sep 2003 7752 hits
T Resam firiri Added on 20th Jan 2003 15455 hits
T MalShree dhun Added on 15th Jan 2003 10931 hits
NepaloPedia Advertise
NSC APP