FIND YOUR SONG BOOK
CLICK HERE FOR ADVANCED SEARCH

You are here » Nepali Song Chord » Arun Thapa » Rituharuma Timi

Rituharuma Timi

Singer : Arun Thapa
Musician : Same
Lyricist : Not Available
 Intro :
 Guitar piece:
E-------------------------------------------------------------------------------------5h6-----|
B----------------1h3-1-----------------------------------------0--------------------------8--6|
G-------0-0h2-2--------0-0h2-2---------------2h3-2-----------0-----2h3-2-0--------------------|
D-----3----------------------------0-3-3s5-5-------3-3s5-5-3-----3---------3-----3--3---------|
A-1s3----------------------------3------------------------------------------------------------|
E---------------------------------------------------------------------------------------------|


(If playing chords from start seems to be difficult play from 3rd Chord)

F    Dm      F            Dm      Gm
Ritu Haruma Timi Hariyali Basanta Hau
             Bb  Dm               F
Nadi Haruma Timi Ho Pabitra Ganga Hau

E|------------------------------------------------------------------------|
B|---3---3-1-1-3---3---3-1------------------------------------------------|
G|-2---2---------2---2-------------2---------------------2----------------|
D|---------------------------3-5-5---5-3-5-3---3---3-5-5---5-3-5-3-3------|
A|-------------------------------------------5---5------------------------|
E|------------------------------------------------------------------------|


F                              Bb
Nirdosh chan ti timra hatkela haru
        C         Bb        F
Tara mayale bhariyeka chan aunlaharu
F              D#     F
Pabitra chan timra laajka gahana
F                     Gm         F     Dm
Tara chahanale bijeka chan oothharu uuuuu
F    Dm     F           Dm     Gm
Hawaharuma timi seetala pawana hau
            Bb  Dm               F
Nadiharuma timi ho pabitra ganga hau


F                         Bb
Prakritile malai janma diyeki
      C        Bb          F
Timro siundoma sindoor bharna
F       D#         F
Saraswatile kalam thamayeki
                   Gm            F        Dm
Timro sundaratako sandhai bayaan garrrrrna
F    Dm      F         Dm     Gm
Phoolharuma timi komal gulaab hau
            Bb  Dm               F
Nadiharuma timi ho pabitra ganga hau.




POST YOUR COMMENTS

OTHER SONGS FROM ARUN THAPA
C Yo man ko k bhar huncha Added on 21st May 2011 3631 hits
T Sanjha ko jun sangai Added on 2nd Feb 2006 22501 hits
C Ankha ko nid koshi laane Added on 1st Apr 2005 13020 hits
T Jati Maya Laye Pani Added on 1st Apr 2003 32856 hits
C Katai tada timi bata Added on 20th Jan 2003 4298 hits
T Rituharuma Timi Added on 13th Jan 2003 32349 hits
NepaloPedia Advertise
NSC APP