FIND YOUR SONG BOOK
CLICK HERE FOR ADVANCED SEARCH

You are here » Nepali Song Chord » The Uglyz » Saathi

Saathi

Band : The Uglyz
Musician : Same
Lyricist : Not Available
Provided by: Saujan Tab provided by Ashish Rajak

h=hold
Intro piece
e|------8~h----12-------------------10-----8---|
B|---8-------------10-----10---12--------------|
G|---------------------------------------------|
D|---------------------------------------------|
A|---------------------------------------------|
E|---------------------------------------------|

C
te mitha pal haru
G
te mitha din haru
F               C
yaad airahancha sadhai
C
garmima sitatlta
G
sisirma nyanopan
F                 C
sath diyau timile sadhai

This piece is played in violin during "Bhanne le j bhanos ...."
e|--7~----10-8-7~---8~-7--5~----7--5---------|
B|-------------------------------------8--5--|
G|-------------------------------------------| ++ Play 2 times +
D|-------------------------------------------|
A|-------------------------------------------|
E|-------------------------------------------|


 Am
(bhanne le j bhanos
G
sunne le j sunos
F                 C
tara timi mero ho sa....thi)*2
G                                  C
sath dinchu timilai ma sadhai bhari

e|-----8---10-8---12-8--10-8------8--10-8--13-12--10-8--7---|
B|--8-----------------------------8-------------------------|
G|----------------------------------------------------------|
D|----------------------------------------------------------|
A|----------------------------------------------------------|
E|----------------------------------------------------------|

dukha ma sangai royau
sukha ma sangai hasyau
sahara mutu diyau
(jaha janu gayeni
j garnu gare ni
sadhai rahanachau mero sa....thi)*2
sath dinchu timilai ma sadhai bhari
(bhanne le j bhanos
sunne le j sunos
tara timi mero ho sa....thi)*2
sath dinchu timilai ma sadhai bhari































































































POST YOUR COMMENTS

OTHER SONGS FROM THE UGLYZ
T Ajhai Added on 26th Sep 2011 2005 hits
C K Added on 27th Jun 2011 2026 hits
C Sandhai Bhari Added on 11th Apr 2011 2829 hits
T Saathi Added on 2nd Feb 2008 19568 hits
T Maya(Tab) Added on 8th Jul 2007 10028 hits
C To an angel Added on 13th Feb 2006 4139 hits
T Maya-1 Added on 18th Sep 2005 5065 hits
C Chahanna ma Added on 18th Sep 2005 6055 hits
T maya Added on 20th Aug 2005 19060 hits
T aundai jadai Added on 27th Apr 2005 38911 hits
NepaloPedia Advertise
NSC APP