FIND YOUR SONG BOOK
CLICK HERE FOR ADVANCED SEARCH

You are here » Nepali Song Chord » Arun Thapa » Sanjha ko jun sangai

Sanjha ko jun sangai

Singer : Arun Thapa
Musician : Same
Lyricist : Not Available
Provided by: Anonymous
*****Intro Guitar:*****
E|--------------------------1312--1210--108--86--65--53--31----------------|
B|-----5-6--5/65----6/10--------------------------------------------5--3--1-3/5--|
G|---5------------7---------------------------------------------------------------|
D|-7------------------------------------------------------------------------------|
A|--------------------------------------------------------------------------------|
E|--------------------------------------------------------------------------------|

   C      Bb
E|-8------6-----5/6--5----------------------|
B|-8------6-------------8-6--5/6-5----------|
G|-9------7-------------------------7-5-----|
D|-10-----8-----------------------------7---|
A|-10-----8---------------------------------|
E|-8------6---------------------------------|

Dm
Sanjha Ko Jun Sangai
G                Dm
Aauchhau Timi Bhanera
A
Tolai Rahanchhu Aakashama
         Dm
Ratako Tara Ganera
              G
Sanjha Ko Jun Sangai
                 Dm
Aauchhau Timi Bhanera

Dm                        C
Sajhai Rahancchu Sapana Haru
          A          Dm
Hridya Bhari Umang Liyara
         C           Bb
Tara Timile Birshi Deyou
             C       Bb         A  Dm
Bichhod Ko Milan Mayaka Katha Haru

***Continue the chords*** as ^

Hatkela Chumera Bhagne Garthyau
Lajale Ti Aankha Chhopera
Chodiyo Mutu Bhagi Deeyou
Mitho Sapana Gaideyou Chhodera





POST YOUR COMMENTS

OTHER SONGS FROM ARUN THAPA
C Yo man ko k bhar huncha Added on 21st May 2011 3953 hits
T Sanjha ko jun sangai Added on 2nd Feb 2006 23584 hits
C Ankha ko nid koshi laane Added on 1st Apr 2005 14354 hits
T Jati Maya Laye Pani Added on 1st Apr 2003 34356 hits
C Katai tada timi bata Added on 20th Jan 2003 4487 hits
T Rituharuma Timi Added on 13th Jan 2003 33827 hits
NepaloPedia Advertise
NSC APP