FIND YOUR SONG BOOK
CLICK HERE FOR ADVANCED SEARCH

You are here » Nepali Song Chord » Melodies » Simsime pani ma

Simsime pani ma

Singer : Melodies
Musician :
Lyricist :
Album : Simsime panima
This is duet song by Prem Raja Mahat and Rekha Shah.
Scale of following tune might be differnt that the original song.
This is just for learning purpose.

   Na jau pa ra au wo ra wo  ra tim ro ma chu mero po kocha ra
E|--------------------3-------3--------3----------------------|
B|-3---3--3--3--3--5-----3H5-----3---5-----5-------3----------|
G|--------------------------------------------5-5-----2-2---0-|
D|------------------------------------------------------------|
A|------------------------------------------------------------|
E|------------------------------------------------------------|

  sim si me pani ma jyan le bei man garchau ki jinda ganima
E|-------3-------3----------3--------------------------------|
B|-3--5-----3-5------3----5-----5-----------3----------------|
G|-----------------------------------5--5------2--2--3-3-3---|
D|-----------------------------------------------------------|
A|-----------------------------------------------------------|
E|-----------------------------------------------------------|





POST YOUR COMMENTS

OTHER SONGS FROM MELODIES
T Chati ma mero yo choto bhoto Added on 23rd Aug 2011 8420 hits
T Simsime pani ma Added on 23rd Apr 2011 6993 hits
T DeusiRe Added on 12th Aug 2005 12116 hits
T Rajamati kumati Added on 2nd Sep 2003 7752 hits
T Resam firiri Added on 20th Jan 2003 15454 hits
T MalShree dhun Added on 15th Jan 2003 10931 hits
NepaloPedia Advertise
NSC APP