FIND YOUR SONG BOOK
CLICK HERE FOR ADVANCED SEARCH

You are here » Nepali Song Chord » Adrian Pradhan » SisireJhari

SisireJhari

Singer : Adrian Pradhan
Musician : Same
Lyricist : Not Available
Provided by: Mr. Saujan Pradhan
pLAY pLUgin as PER THE chords!

INTRO: PLAY PLUGIN IN G 4 TIMES
  G                             D
E|--------------3------------| |-------------2-------------|
B|--------3--------3-----3---| |-------3--------3-----3----|
G|-----0-----0--------0------| |----------2--------2-------|
D|---------------------------| |--0------------------------|
A|---------------------------| |---------------------------|
E|--3------------------------| |---------------------------|

  Am                            C
E|--------------0------------| |--------------0-------------|
B|--------1--------1-----1---| |--------1--------1-----1----|
G|-----2-----2--------2------| |-----0-----0--------0-------|
D|---------------------------| |----------------------------|
A|--0------------------------| |--3-------------------------|
E|---------------------------| |----------------------------|

  F                             Dm
E|--------------1------------| |--------------1-------------|
B|--------1--------1-----1---| |--------3--------3-----3----|
G|-----2-----2--------2------| |-----2-----2--------2-------|
D|---------------------------| |--2-------------------------|
A|--3------------------------| |----------------------------|
E|---------------------------| |----------------------------|


 G                       D
sisire jhai rito mero jiwan ma
Am              C         G
basnata ko nyano   kahile chayena
        F               D              G
abhas sukha ko kahile payena kahile payena
 G
sisire jhai rito

mucic:C C Am Am C C Am Am C Am G G

G                       D
pirati ko katha betha banera
Am               C             G
kalpana ko sansar   aansu mai dubyo
   Dm              G
{sapana ko mahal sajaula bhanthe}*2
  C                    G
bipana le ankha malai bharie diyo

AND THE saME CHord-PLUGIN!!!!
abhilasha chattimai salki rahyo
icha haru kahile sakar bhayenan
saptarangi sapna ankhai ma tasera
chaheko thiye jeuna ma pani yeha
tita mitha anek anubhab sangalera
lachahin paila haru badihiraho
sisire jhai rito mero jiwan ma
basnata ko nyano kahile chayena
abhas sukha ko kahile payena kahile payena
sisire jhai rito





POST YOUR COMMENTS

OTHER SONGS FROM ADRIAN PRADHAN
C Jaba timi hunchau Added on 24th Mar 2012 7099 hits
C Nasamjha bhulidinelai Added on 19th Mar 2012 8123 hits
C Aaja : Samjhi Lyaunda Added on 3rd May 2008 15883 hits
C Kaash mera Added on 12th Aug 2007 4850 hits
C Navana mero maya Added on 3rd Nov 2005 33128 hits
C Aaja Added on 2nd Nov 2005 9217 hits
T SisireJhari Added on 5th Aug 2005 18466 hits
T SaraKhusi Added on 30th Jul 2005 26913 hits
NepaloPedia Advertise
NSC APP