FIND YOUR SONG BOOK
CLICK HERE FOR ADVANCED SEARCH

You are here » Nepali Song Chord » Sanjaya Shrestha » Tada bhayera k huncha

Tada bhayera k huncha

Singer : Sanjaya Shrestha
Musician : Same
Lyricist : Not Available
E|-----3-------3-----------3-----------------------3-3-1-0-----
B|---5---5---5---5-----3-5---6-5-6-5-3---3---------------------
G|-5-------5---------5-----------------5---5-------------------
D|-------------------------------------------------------------
A|-------------------------------------------------------------
E|-------------------------------------------------------------

  <-------- #1---------->
E|-3-3-1-0-------3-3-1-0-|------1-1-1-1-0-----------|----------|-5-5-5-5-----------|
B|---------1-3-1---------|1-3-1-----------3-1-3-3-3-|----------|---------6---3-3-3-|
G|-----------------------|--------------------------|-Repeat #1|-----------5-------|
D|-----------------------|--------------------------|----------|-------------------|
A|-----------------------|--------------------------|----------|-------------------|
E|-----------------------|--------------------------|----------|-------------------|


C
Tada bhayera k huncha maya ta manale bujcha
F         G                           C
  Timilai khel hola aankha ta mero po runcha
F                 G      F                  G
  Kasam timile ti todera   Chodera gayepani k bho ra
G        C         G           C
Jaha nai jaau timi   malai nai bhule pani
F                    G
 Timilai teto dherai samjhula
G           C          G             C
  Jeevan yo rahe samma   namari gaye samma
F                     G         C
 Ma timrai naama liyi baanchula ho


C
Bihana biunjhera herchu Sirani bhijekai huncha
F          G                         C 
  Samjhana tita mitha aansu banera sataauncha
F                 G       F                  G
  Biteka palaharu khusika   timile birsepani k bho ra




POST YOUR COMMENTS

OTHER SONGS FROM SANJAYA SHRESTHA
C Euta gaun thiyo Added on 17th Aug 2013 5195 hits
C timi bina sansar birano Added on 29th May 2011 1992 hits
C Tyo mutulai choyera Added on 9th Aug 2008 13560 hits
C Tada Najai deu timi Added on 17th Jun 2006 6914 hits
C Maya Meri Maya Added on 15th Feb 2006 16202 hits
T Choyera bhanchu yo mutulai Added on 3rd Feb 2003 3098 hits
C Jaau timi jaau Added on 3rd Feb 2003 3047 hits
T Chadi jaane mayaluko Added on 3rd Feb 2003 3130 hits
T Tada bhayera k huncha Added on 3rd Feb 2003 2786 hits
T Manale khai kasalai Added on 3rd Feb 2003 2492 hits
NepaloPedia Advertise
NSC APP