FIND YOUR SONG BOOK
CLICK HERE FOR ADVANCED SEARCH

You are here » Nepali Song Chord » Axix » Time pheri aauna

Time pheri aauna

Band : Axix
Musician : Same
Lyricist : Not Available
Contributed by : Mr Saujan Tabbed by : Mr Kapil M.

INTRO:
E-----------15---13-12-13-12---------------|
B--------13------------------15-13---15-13-|
G---0/12-----------------------------------|
D------------------------------------------|
A------------------------------------------|
E------------------------------------------|

------------13-12------------------------|
--15b-15b15b------15-13-15-13------------|
------------------------------14~---14/x-|
-----------------------------------------|
-----------------------------------------|
-----------------------------------------|

-------------------12-13--15r-----12-15--------12-13-12-15-12-13-12-15--------|
---------12h13-15------------------------------------------------------15r-13-|
---12h14----------------------------------------------------------------------|
------------------------------------------------------------------------------|
------------------------------------------------------------------------------|
------------------------------------------------------------------------------|

----------------------------------------------------------------------13--12-|
--15---13-------------------12h13--12----13------------------12h13-15--------|
----------------------12h14-------------------14~------12h14-----------------|
----------------12h14--------------------------------------------------------|
-----------------------------------------------------------------------------|
-----------------------------------------------------------------------------|

--15b---15---12--13-12----------------------------------------------------|
-----------------------15b-15-13-12---13----12----------------------------|
-----------------------------------------------------14-12----------------|
-----------------------------------------------------------14-13-12-11-10-|
--------------------------------------------------------------------------|
--------------------------------------------------------------------------|

C

parkhera ra basi raheko

Am

hunchu  ma timilai

F                   G

tehi talla ko tyo chiya pasal ma

C

tara timi bhane kahile

Am

audainau bhetna

F                       G

sayad birsyau ki kya ho hamra ti bacha

   C             Am

timi feri aauna

   C             Am

timi feri aauna

   C             Am

timi feri aauna


SOLO:
E-----------------------------------------------------|
B-----------------------------------------------------|
G---------------------------5----------------5-7r---5-|
D-----------------5---5-7--------7-5-7---5-7----------|
A-------------5-7---7------------------7--------------|
E-----------8-----------------------------------------|

--------------------------------------------------------7-8-|
-----------------------5-6-5---6----6h5----------5-6-8------|
--7-5--------------5-7------------------7h5--5-7------------|
------7-7------5-7------------------------------------------|
------------------------------------------------------------|
------------------------------------------------------------|

--8/10----------------13--13-13-12-------|
---------15---------------------17-15-13-|
------------12--12-----------------------|
-----------------------------------------|
-----------------------------------------|
-----------------------------------------|

------------------13-13-13-13-12---------------------------------15--------|
--15---13-13---------------------15-13---15---13-13-----13-12-13----13--15b|
---------------------------------------------------------------------------|
---------------------------------------------------------------------------|
---------------------------------------------------------------------------|
---------------------------------------------------------------------------|

----15---------------------------------12---|
-------15r-13-15-13-13--------12-13-15------|
------------------------12-14---------------|
--------------------------------------------|
--------------------------------------------|
--------------------------------------------|

--13-12----15-12--------------------------------------------------|
--------13-------13-15-13-----------------------------------------|
--------------------------12/14-12--------------------------------|
------------------------------------14-12--11---10----------------|
------------------------------------------------------------------|
------------------------------------------------------------------|

 

jali rahecha mutu timro nai yad ma

timro tyo muskan ajhai cha mero man ma

tara timile bhane angalau kasailai

sayad birsyau ki kya ho hamra ti bacha

timi feri aauna

timi feri aauna

timi feri aaunaaaa

 

jhuto rahecha sansar

jhutai rahecha maya

tehi pani chu ma timro

maya ko asama

tara timi le bhane bitholau sapan

sayad birsyau ki kya ho hamra ti bacha

timi feri aauna





POST YOUR COMMENTS

OTHER SONGS FROM AXIX
C E Mori kali na gori Added on 27th Aug 2006 13221 hits
T Time pheri aauna Added on 3rd Oct 2004 18456 hits
T Adhuro Prem Added on 3rd Oct 2004 27336 hits
NepaloPedia Advertise
NSC APP