FIND YOUR SONG BOOK
CLICK HERE FOR ADVANCED SEARCH

You are here » Nepali Song Chord » Cobweb » Timro maya

Timro maya

Band : Cobweb
Musician : Same
Lyricist : Not Available
Provided by: ADY
E                  B                        E          B
timro tyo ankha ma maile dekhe thiye sansarai merai
E                  B                        E          B
timro tyo ankha ma maile dekhe thiye sansarai merai
A            B              A           B
bihani ko kiran ho ki sital batash hau
A            B              A           B
bihani ko kiran ho ki sital batash hau
E     B       A    B(play half beat at A here)
timro maya
E     B       A    B(play half beat at A here)
timro maya

E                  B                       E              B
mero yo gita ma maile paye thiye avash timrai
E                  B                       E              B
mero yo gita ma maile paye thiye avash timrai
A            B              A            B
bihani ko kiran ho ki sital batash hau
A            B              A            B
bihani ko kiran ho ki sital batash hau
E     B         A      B(play half beat at A here)
timro maya
E     B         A      B(play half beat at A here)
timro maya

E                      B                        E               B
badhyata ra biwasta ko dori le sakidaina yo maan badhna kahile
E               B                   E                       B
maya garne chu sadhai timilai jati garhchu ahile
E     B               A                B(play half beat at A here)
timro maya
E              B      A               B(play half beat at A here)
timro maya

Middle ko lead

E-----------------------------------------------------------------------------------------
B--9----10(p.o)9-----------------------9---9-------10(p.o)9------------------------12--~~-
G--------------------11(p.o)9----11------------------------------11(p.o)9-----11--------11-
D------------------------------------------------------------------------------------------
A------------------------------------------------------------------------------------------
E------------------------------------------------------------------------------------------

REPEAT above 1 more time then go with talako tab
E ------------------------------9-----------9----11----9---------------------------------|
B ------------------------------------9------------------------12------10?---10----10s12-|
G 9s11---9----8b-------------------------------------------------------------------------|
D ---------------------------------------------------------------------------------------|
A ---------------------------------------------------------------------------------------|
E ---------------------------------------------------------------------------------------|

E--9------------9-------11-----11s12-----11--12---12s14---12------11----12--|
B---------9-----------------------------------------------------------------|
G---------------------------------------------------------------------------|
D---------------------------------------------------------------------------|
A---------------------------------------------------------------------------|
E---------------------------------------------------------------------------|




POST YOUR COMMENTS

OTHER SONGS FROM COBWEB
C Timro maya Added on 8th Oct 2005 28229 hits
NepaloPedia Advertise
NSC APP