FIND YOUR SONG BOOK
CLICK HERE FOR ADVANCED SEARCH

You are here » Nepali Song Chord » Tara Devi » Ukaali orali haruma

Ukaali orali haruma

Singer : Tara Devi
Musician : NatiKaji
Lyricist : Chadani Shah


First Intro
E|-9---9-11-9----9-----14-------------14----------------------|
B|---10-------10----------17p16-17p16----------------------14-|
G|---------------------------------------16p14-16p14----14----|
D|---------------------------------------------------16-------|
A|------------------------------------------------------------|
E|------------------------------------------------------------|

Interlude
E|-17-16-14-17-16---17-16-14-17-16---16-14-12-16-14-----9---7---4---2-|
B|---------------------------------------------------10---8---5---2---|
G|--------------------------------------------------------------------|
D|--------------------------------------------------------------------|
A|--------------------------------------------------------------------|
E|--------------------------------------------------------------------|

F#m
Ukaali orali haruma bhanjyang ani chautari haruma
   E             F#m    A        E              F#m
Sundar ti daha haruma Himal ka bisaal chati haruma
F#m                    E                   A          F#m
Jahan Jahan jaanchau timi ma paaila bani pachyai rahanchu
        A     E                                A        F#m
Ti chahara khola khahare haruma samjhana bani bagi rahanchu

 


F#m              E         A               E
Tarai ka hariya faant ma pahad ka tareli haruma
  B                 E        A     B         F#m
Himal ka sundar ani bikat ti basti basti haruma
F#m                    E                 A               F#m
Jahan jahan jaanchau timi ma baato bani saathai aai rahanchu
     A       E                             A         F#m
Ti suskera thakai suseli haruma geet bani gunji rahanchu

 

 



Additional Lyrics
Mutu kamaune jaado haruma kapal dukhne garmi haruma
Mana harne sundar drisya saanta sital batawaran ma
Jahan jahan jaannchau timi ma aakash bani dekhi rahanchu
Ti leka besi and pakha haruma pawan bani bheti rahanchu





POST YOUR COMMENTS

Video of the Song

OTHER SONGS FROM TARA DEVI
C Timra paau haruma ma Added on 25th Mar 2012 2680 hits
T Kali pari dai kati raamro Added on 3rd Jun 2011 7140 hits
T Ukaali orali haruma Added on 9th Jun 2005 16804 hits
C Subhakamana bhari Added on 31st May 2005 9453 hits
NepaloPedia Advertise
NSC APP