FIND YOUR SONG BOOK
CLICK HERE FOR ADVANCED SEARCH

You are here » Nepali Song Chord » Nabin K Bhattarai » Ye Jhari najhari deu

Ye Jhari najhari deu

Singer : Nabin K Bhattarai
Musician :
Lyricist :

E|--------------8-10-b8r-------------------------------|
B|-10-8-10---10-----------10---8-6-b8r---8-6-5-----8-6-|
G|-----------------------------------------------------|
D|-----------------------------------------------------|
A|-----------------------------------------------------|
E|-----------------------------------------------------|

 

 

Percussion
E|-------5------------3-------|
B|-6-6-8---5---3p1-3----3-5-6-|
G|----------------------------|
D|----------------------------|
A|----------------------------|
E|----------------------------|

 

 

F
Ye jhari najhari deu yesari
  Dm            C         Am      F
Ekaanta yo raat ma malai paagal gari
F                 C       F
Jhari deu timi sustari sustari
      Dm            C
Jaba hunchin meri mayalu
       F
Mero wori pari

 

 

    F                   Dm
Ye megh nagarji deu yesari
    C
Nindra ma masta bhayeki meri
    F
Mayalu tarsane gari
       Dm      A          Dm     F
Garji deu timi raatai tharkane gari
      C
Jaba haaschin meri mayalu
       F
Mero angaalo ma pari

 

 


E|-----------10-13-12-------------------------|
B|-10-11--11-----------11-10-11--------11-10--|
G|-------------------------------12-10--------|
D|--------------------------------------------|
A|--------------------------------------------|
E|--------------------------------------------|

 

 


Ye bijuli nachamki deu yesari
Mero ankha tirmiraaune gari
Chamki deuna timi andhaaar bhaagne gari
Mero mayalu ko hasilo anuhaar
Dekhine gari





POST YOUR COMMENTS

Video of the Song

OTHER SONGS FROM NABIN K BHATTARAI
T Raat Bityo Added on 16th May 2016 7980 hits
C Ali alikati pida huda ni Added on 16th Aug 2013 12249 hits
C Sanjha pakha ekaantama Added on 26th Aug 2012 18505 hits
T Ye Jhari najhari deu Added on 29th Mar 2012 9369 hits
C Khadai nakhako bish Added on 16th Dec 2011 9152 hits
C Raharai rahar ma Added on 28th Jan 2008 5609 hits
C Ma Maya Laudina Added on 27th Aug 2005 10717 hits
T Timile herda kasailai Added on 20th May 2005 14896 hits
T Yehi ho ta maya Added on 25th Nov 2004 18134 hits
T Yaad sanchi kati basu Added on 28th Feb 2003 9760 hits
C Timro mayale malai satauncha Added on 28th Feb 2003 5291 hits
T Saayed timi nai hau Added on 17th Feb 2003 18806 hits
C Bajaunda bajaundai Added on 15th Feb 2003 4121 hits
C Preet geet rache maile Added on 15th Feb 2003 4571 hits
C Samjhan timro mitho cha Added on 15th Feb 2003 8417 hits
C Bhijeko nazarle Added on 15th Feb 2003 4133 hits
C Aakash runcha Added on 15th Feb 2003 3779 hits
C Yaad ayo pheri aaja Added on 15th Feb 2003 3899 hits
T Aankhama timilai paaunchu Added on 15th Feb 2003 22962 hits
NepaloPedia Advertise
NSC APP