FIND YOUR SONG BOOK
CLICK HERE FOR ADVANCED SEARCH

You are here » Nepali Song Chord » Nabin K Bhattarai » Yehi ho ta maya

Yehi ho ta maya

Singer : Nabin K Bhattarai
Musician : Same
Lyricist : Not Available
Contributed by : Mr Saujan(Chords) Tabs: By Suman
Intro Lead
E|---------------------------------------------------|
B|---8-10-10s12-10s12-10--12-13-13s15--13-12-10-8----|
G|-7-------------------------------------------------|
D|---------------------------------------------------|
A|---------------------------------------------------|
E|---------------------------------------------------|

(Middle Lead)
E|-----------------------------------------------------15----12--------------------------------
B|-8s10-8---8-10s12-10-8---8-10s12-10-8--7h8-7------------15----12-15----12-----------8-10s12-
G|--------9--------------9---------------------9bl-7------------------14----14-12---9----------
D|---------------------------------------------------------------------------------------------
A|---------------------------------------------------------------------------------------------
E|---------------------------------------------------------------------------------------------

E|--------7-10-10b10r-10--|
B|-10-8-------------------|
G|------------------------|
D|------------------------|
A|------------------------|
E|------------------------|

         G
sunasana ratma
           D
jun herdai tolaunchu
     C               G
tara haru ma usailai dekhchu
        G
keetab kholchu
       D            C
aksyar bata man yo bhagcha
        G
aaja yo k bhayo
          G        D
nindereli le chadi dinche
        C           G
anautho yad le mataideincha
      G           D
bichauna ma eklia huda
     C              G
lamo rat le satai rahancha
      G          D           C
chati mero bhari huncha aasu jharcha
       G
aja yo k bhayo

G
yehi ho ta maya
        C
yehi ho ta maya
    D                  G 
jun timilai ma sunai rahechu


C          
ninderi le chadi dinche
D
usko yaad le mataucha

C
bichodama eklai huda

D
lamo rat le sataucha
C
kahile kasto kahile kasto
D
chati yo jale jasto
C
mai hu bhane muttu pani

D
usko samu dare jasto


Continue with the same chords!!!!


yehi ho ta maya
yehi ho ta maya
jun timilai ma sunai rahechu
 

pal haru ko chamak ma nai
tehi muhar jhajhalkirancha
simal ko huwa sari
hawa sangai mana yo udcha
aja yo k bhayooooo





POST YOUR COMMENTS

OTHER SONGS FROM NABIN K BHATTARAI
T Raat Bityo Added on 16th May 2016 7980 hits
C Ali alikati pida huda ni Added on 16th Aug 2013 12249 hits
C Sanjha pakha ekaantama Added on 26th Aug 2012 18505 hits
T Ye Jhari najhari deu Added on 29th Mar 2012 9368 hits
C Khadai nakhako bish Added on 16th Dec 2011 9152 hits
C Raharai rahar ma Added on 28th Jan 2008 5609 hits
C Ma Maya Laudina Added on 27th Aug 2005 10717 hits
T Timile herda kasailai Added on 20th May 2005 14896 hits
T Yehi ho ta maya Added on 25th Nov 2004 18134 hits
T Yaad sanchi kati basu Added on 28th Feb 2003 9760 hits
C Timro mayale malai satauncha Added on 28th Feb 2003 5291 hits
T Saayed timi nai hau Added on 17th Feb 2003 18806 hits
C Bajaunda bajaundai Added on 15th Feb 2003 4121 hits
C Preet geet rache maile Added on 15th Feb 2003 4571 hits
C Samjhan timro mitho cha Added on 15th Feb 2003 8417 hits
C Bhijeko nazarle Added on 15th Feb 2003 4133 hits
C Aakash runcha Added on 15th Feb 2003 3779 hits
C Yaad ayo pheri aaja Added on 15th Feb 2003 3899 hits
T Aankhama timilai paaunchu Added on 15th Feb 2003 22961 hits
NepaloPedia Advertise
NSC APP