FIND YOUR SONG BOOK
CLICK HERE FOR ADVANCED SEARCH

You are here » Nepali Song Chord » Narayan Gopal » Yeti Dherai Maya Diyi

Yeti Dherai Maya Diyi

Singer : Narayan Gopal
Musician : Same
Lyricist : Not Available
E|-5-------5---------8-10-8-5------------8-12p10----12p10------------------10-9--|
B|---6-------6----------------6------------------13-------13-10-8s6-6-8-10-------|
G|-----5-7-----5-7--------------7-5--5s7-----------------------------------------|
D|-------------------------------------------------------------------------------|
A|-------------------------------------------------------------------------------|
E|-------------------------------------------------------------------------------|

E|-5h6-5---------5h6-5-----6-5-------|
B|-------6-------------6-8-----8-6---|
G|---------5-7-5---------------------|
D|-----------------------------------|
A|-----------------------------------|
E|-----------------------------------|


F      Gm          F         Bb   F 
Yeti dherai maya diyi mana bhari dukha nadeu
F      Gm        F           Bb   F
Bato wara para phulne palans tipi sirma nalau


E|--------------------------------------0---0-3-1--------------------|
B|-------1---1-3-1---1----------------1---1-------3-1----------------|
G|-2-0-2---2-------2---2-0--0-----3-3-----------------3-2-0---2-0----|
D|----------------------------3-0---------------------------3-----3--|
A|-------------------------------------------------------------------|
E|-------------------------------------------------------------------|

E|------------------------------------------|
B|------------------------------------------|
G|-------------9p7-9-7----7-----------------|
D|-------7p5-7---------10---10-7--10-7----7-|
A|-5p3-5-------------------------------10---|
E|------------------------------------------|

Tab 2
E|-5---------5-------------|
B|---6-----8---6-----8-6---|
G|-----5-7-------5-7-------|
D|-------------------------|
A|-------------------------|
E|-------------------------|

F                 Dm         Gm          F    Play Tab 2
Jo Bhagyama koriyeka sukha dukha swikarachan
F         Bb             A         C     F
Kehi tita pal kehi mitha pal sabai sabai swikarchan
F      Gm             F              Bb        F
Yi hataharu prasastai chan bho santwana malai nadeu


F                 Dm         Gm         F   Play Tab 2
Yo batoma kati kanda kati phool tipi hinde
F      Bb           A         C     F
Kati parai aphna dekhen kati aphana parai bheten
F       Gm          F         Bb        F
Yo jindagi ko moda ma bho sahara malai nadeu




POST YOUR COMMENTS

OTHER SONGS FROM NARAYAN GOPAL
C Mohani Laagla Hai Added on 25th Jun 2012 24256 hits
C Aja bholi harek saanjh Added on 6th Jun 2011 13224 hits
C Ankha chopi narou bhani Added on 10th Apr 2007 19947 hits
T Malai Nasodha Kahan Dukcha Added on 17th Jan 2003 41478 hits
T Euta Mancheko Mayale Kati Added on 17th Jan 2003 33998 hits
T Kehi Mitho Bata Gara Added on 17th Jan 2003 57535 hits
T Yeti Dherai Maya Diyi Added on 17th Jan 2003 29386 hits
C Malai Maph gari deu Added on 17th Jan 2003 28557 hits
NepaloPedia Advertise
NSC APP